Merseburger Zauberspruch

  Kürenberger  

Mp3Akkorde

> Hörbeispiel-Download <


Spruch 1: Lösezauber von Fesseln eines Gefangenen (Kriegers)

dm              C        dm   C  dm
Eiris sazun Idisi, sazun hera duoder.
dm             C         dm   C  dm
suma hapt heptidun, suma heri lezidun,
dm                 C
suma clubodun umbi cuoniouuidi:
         dm     C       dm   C
insprinc haptbandun, inuar uigandun! 
   dm   C  dm
inuar uigandun!


Spruch 2: Heilungszauber eines verletzten (verrenkten) Pferdefußes

Phol ende uuodan uuorun zi holza.
du uuart demo balderes uolon sin uuoz birenkit.
thu biguol en sinthgunt,  sunna era suister;
thu biguol en friia, uolla era suister;
thu biguol en uuodan, so he uuola conda:

sose benrenki, sose bluotrenki,
sose lidirenki: ben zi bena,
bluot zi bluoda, lid zi geliden,
sose gelimida sin.




Melodie 1:

|-5-5-5-5-3-1-3-1-3-5-3-1-0-----5-5-5-5-3-1-3-1-3-5-3-1-0-----1-
|---------------------------1-3---------------------------1-3-3-
|-------------------------------------------------------------2-
|---------------------------------------------------------------
|-5-----------------------------5-------------------------------


|---0-1-0---0-1-3-5-3-1-0-1-3-5-10-10-8-5-3-
|-3-------3---------------------------------
|-------------------------------------------
|-------------------------------------------
|-------------------------------------------
|-------------------------------------------

|-5-8-10-10-10-8-5-3-5-3-1-0-1-3-5-3-1-0---1-
|----------------------------------------1-3-
|------------------------------------------2-
|--------------------------------------------
|--------------------------------------------
|--------------------------------------------

Die zwei Zauberformeln sind in althochdeutscher Sprache (9. Jahrhundert) niedergeschrieben 
und referieren auf die vorchristliche Germanische Mythologie.


(Textquelle: Aufzeichnung aus der Domstiftsbibliothek Merseburg bei Wikipedia)